ISO-10303-21;
HEADER;
FILE_DESCRIPTION (( 'STEP AP203' ),
    '1' );
FILE_NAME ('MHWP-25.4-670.STEP',
    '2020-12-22T09:26:56',
    ( '' ),
    ( '' ),
    'SwSTEP 2.0',
    'SolidWorks 2020',
    '' );
FILE_SCHEMA (( 'CONFIG_CONTROL_DESIGN' ));
ENDSEC;

DATA;
#1 = CARTESIAN_POINT ( 'NONE',  ( 1.999999999999998224, 1.555301434917138433E-15, -12.69999999999999929 ) ) ;
#2 = FACE_OUTER_BOUND ( 'NONE', #90, .T. ) ;
#3 =( LENGTH_UNIT ( ) NAMED_UNIT ( * ) SI_UNIT ( .MILLI., .METRE. ) );
#4 = APPLICATION_CONTEXT ( 'configuration controlled 3d designs of mechanical parts and assemblies' ) ;
#5 = PERSON_AND_ORGANIZATION ( #152, #10 ) ;
#6 = APPLICATION_PROTOCOL_DEFINITION ( 'international standard', 'config_control_design', 1994, #4 ) ;
#7 = CIRCLE ( 'NONE', #41, 12.69999999999999929 ) ;
#8 = ORIENTED_EDGE ( 'NONE', *, *, #28, .T. ) ;
#9 = ORIENTED_EDGE ( 'NONE', *, *, #171, .F. ) ;
#10 = ORGANIZATION ( 'UNSPECIFIED', 'UNSPECIFIED', '' ) ;
#11 = APPROVAL_STATUS ( 'not_yet_approved' ) ;
#12 = APPROVAL ( #149, 'UNSPECIFIED' ) ;
#13 = APPROVAL_PERSON_ORGANIZATION ( #103, #12, #163 ) ;
#14 = CARTESIAN_POINT ( 'NONE',  ( 0.000000000000000000, 1.555301434917138433E-15, -12.69999999999999929 ) ) ;
#15 = DIRECTION ( 'NONE',  ( 0.000000000000000000, 0.000000000000000000, 1.000000000000000000 ) ) ;
#16 = DIRECTION ( 'NONE',  ( -1.000000000000000000, -0.000000000000000000, -0.000000000000000000 ) ) ;
#17 = CC_DESIGN_PERSON_AND_ORGANIZATION_ASSIGNMENT ( #5, #112, ( #174 ) ) ;
#18 = FACE_OUTER_BOUND ( 'NONE', #89, .T. ) ;
#19 = PERSON_AND_ORGANIZATION ( #152, #10 ) ;
#20 = COORDINATED_UNIVERSAL_TIME_OFFSET ( 8, 0, .AHEAD. ) ;
#21 = APPROVAL_PERSON_ORGANIZATION ( #19, #125, #31 ) ;
#22 = ADVANCED_FACE ( 'NONE', ( #26 ), #27, .F. ) ;
#23 = CARTESIAN_POINT ( 'NONE',  ( 1.999999999999998224, 0.000000000000000000, 0.000000000000000000 ) ) ;
#24 = VECTOR ( 'NONE', #62, 1000.000000000000000 ) ;
#25 = DIRECTION ( 'NONE',  ( -1.000000000000000000, -0.000000000000000000, -0.000000000000000000 ) ) ;
#26 = FACE_OUTER_BOUND ( 'NONE', #126, .T. ) ;
#27 = PLANE ( 'NONE',  #175 ) ;
#28 = EDGE_CURVE ( 'NONE', #39, #75, #65, .T. ) ;
#29 = DIRECTION ( 'NONE',  ( 0.000000000000000000, 0.000000000000000000, 1.000000000000000000 ) ) ;
#30 = CC_DESIGN_DATE_AND_TIME_ASSIGNMENT ( #44, #169, ( #154 ) ) ;
#31 = APPROVAL_ROLE ( '' ) ;
#32 = CC_DESIGN_SECURITY_CLASSIFICATION ( #136, ( #174 ) ) ;
#33 = APPLICATION_PROTOCOL_DEFINITION ( 'international standard', 'config_control_design', 1994, #170 ) ;
#34 = PERSON_AND_ORGANIZATION ( #152, #10 ) ;
#35 = AXIS2_PLACEMENT_3D ( 'NONE', #156, #51, #132 ) ;
#36 = UNCERTAINTY_MEASURE_WITH_UNIT (LENGTH_MEASURE( 1.000000000000000082E-05 ), #3, 'distance_accuracy_value', 'NONE');
#37 = CALENDAR_DATE ( 2020, 22, 12 ) ;
#38 = LOCAL_TIME ( 17, 26, 56.00000000000000000, #122 ) ;
#39 = VERTEX_POINT ( 'NONE', #50 ) ;
#40 = PLANE ( 'NONE',  #74 ) ;
#41 = AXIS2_PLACEMENT_3D ( 'NONE', #80, #118, #29 ) ;
#42 = ADVANCED_BREP_SHAPE_REPRESENTATION ( 'MHWP-25.4-670', ( #55, #73 ), #96 ) ;
#43 = DESIGN_CONTEXT ( 'detailed design', #4, 'design' ) ;
#44 = DATE_AND_TIME ( #100, #167 ) ;
#45 = PERSON_AND_ORGANIZATION ( #152, #10 ) ;
#46 = COORDINATED_UNIVERSAL_TIME_OFFSET ( 8, 0, .AHEAD. ) ;
#47 = ORIENTED_EDGE ( 'NONE', *, *, #166, .T. ) ;
#48 = ORIENTED_EDGE ( 'NONE', *, *, #137, .F. ) ;
#49 = ORIENTED_EDGE ( 'NONE', *, *, #77, .F. ) ;
#50 = CARTESIAN_POINT ( 'NONE',  ( 1.999999999999998224, 0.000000000000000000, 12.69999999999999929 ) ) ;
#51 = DIRECTION ( 'NONE',  ( -1.000000000000000000, -0.000000000000000000, -0.000000000000000000 ) ) ;
#52 = CARTESIAN_POINT ( 'NONE',  ( 0.000000000000000000, 0.000000000000000000, 12.69999999999999929 ) ) ;
#53 = DIRECTION ( 'NONE',  ( -1.000000000000000000, 0.000000000000000000, -0.000000000000000000 ) ) ;
#54 = CARTESIAN_POINT ( 'NONE',  ( 1.999999999999999112, 12.69999999999999929, 0.000000000000000000 ) ) ;
#55 = MANIFOLD_SOLID_BREP ( 'Ðý×', #138 ) ;
#56 = AXIS2_PLACEMENT_3D ( 'NONE', #117, #157, #106 ) ;
#57 = DIRECTION ( 'NONE',  ( 0.000000000000000000, 0.000000000000000000, 1.000000000000000000 ) ) ;
#58 = DATE_TIME_ROLE ( 'classification_date' ) ;
#59 = APPROVAL_ROLE ( '' ) ;
#60 = CC_DESIGN_PERSON_AND_ORGANIZATION_ASSIGNMENT ( #34, #147, ( #174 ) ) ;
#61 =( NAMED_UNIT ( * ) SI_UNIT ( $, .STERADIAN. ) SOLID_ANGLE_UNIT ( ) );
#62 = DIRECTION ( 'NONE',  ( -1.000000000000000000, -0.000000000000000000, -0.000000000000000000 ) ) ;
#63 = DIRECTION ( 'NONE',  ( 0.000000000000000000, 0.000000000000000000, -1.000000000000000000 ) ) ;
#64 = FACE_OUTER_BOUND ( 'NONE', #150, .T. ) ;
#65 = LINE ( 'NONE', #52, #76 ) ;
#66 = CC_DESIGN_APPROVAL ( #81, ( #154 ) ) ;
#67 = DATE_AND_TIME ( #101, #93 ) ;
#68 = PERSON_AND_ORGANIZATION_ROLE ( 'creator' ) ;
#69 = CALENDAR_DATE ( 2020, 22, 12 ) ;
#70 = COORDINATED_UNIVERSAL_TIME_OFFSET ( 8, 0, .AHEAD. ) ;
#71 = EDGE_CURVE ( 'NONE', #75, #142, #158, .T. ) ;
#72 = PERSON_AND_ORGANIZATION ( #152, #10 ) ;
#73 = AXIS2_PLACEMENT_3D ( 'NONE', #144, #57, #161 ) ;
#74 = AXIS2_PLACEMENT_3D ( 'NONE', #173, #131, #63 ) ;
#75 = VERTEX_POINT ( 'NONE', #83 ) ;
#76 = VECTOR ( 'NONE', #25, 1000.000000000000000 ) ;
#77 = EDGE_CURVE ( 'NONE', #104, #39, #7, .T. ) ;
#78 = CYLINDRICAL_SURFACE ( 'NONE', #128, 12.69999999999999929 ) ;
#79 = CARTESIAN_POINT ( 'NONE',  ( -1.187907395172932594E-15, 0.000000000000000000, 0.000000000000000000 ) ) ;
#80 = CARTESIAN_POINT ( 'NONE',  ( 1.999999999999998224, 0.000000000000000000, 0.000000000000000000 ) ) ;
#81 = APPROVAL ( #11, 'UNSPECIFIED' ) ;
#82 = AXIS2_PLACEMENT_3D ( 'NONE', #23, #16, #105 ) ;
#83 = CARTESIAN_POINT ( 'NONE',  ( -1.187907395172932594E-15, 0.000000000000000000, 12.69999999999999929 ) ) ;
#84 =( NAMED_UNIT ( * ) PLANE_ANGLE_UNIT ( ) SI_UNIT ( $, .RADIAN. ) );
#85 = PERSON_AND_ORGANIZATION_ROLE ( 'classification_officer' ) ;
#86 = ADVANCED_FACE ( 'NONE', ( #64 ), #119, .T. ) ;
#87 = AXIS2_PLACEMENT_3D ( 'NONE', #79, #108, #15 ) ;
#88 = ADVANCED_FACE ( 'NONE', ( #18 ), #78, .T. ) ;
#89 = EDGE_LOOP ( 'NONE', ( #47, #129, #151, #168 ) ) ;
#90 = EDGE_LOOP ( 'NONE', ( #148, #95 ) ) ;
#91 = DIRECTION ( 'NONE',  ( -0.000000000000000000, 0.000000000000000000, 1.000000000000000000 ) ) ;
#92 = DIRECTION ( 'NONE',  ( -1.000000000000000000, -0.000000000000000000, -0.000000000000000000 ) ) ;
#93 = LOCAL_TIME ( 17, 26, 56.00000000000000000, #20 ) ;
#94 = ADVANCED_FACE ( 'NONE', ( #2 ), #40, .F. ) ;
#95 = ORIENTED_EDGE ( 'NONE', *, *, #137, .T. ) ;
#96 =( GEOMETRIC_REPRESENTATION_CONTEXT ( 3 ) GLOBAL_UNCERTAINTY_ASSIGNED_CONTEXT ( ( #36 ) ) GLOBAL_UNIT_ASSIGNED_CONTEXT ( ( #3, #84, #61 ) ) REPRESENTATION_CONTEXT ( 'NONE', 'WORKASPACE' ) );
#97 = PERSON_AND_ORGANIZATION_ROLE ( 'design_owner' ) ;
#98 = SECURITY_CLASSIFICATION_LEVEL ( 'unclassified' ) ;
#99 = LOCAL_TIME ( 17, 26, 56.00000000000000000, #113 ) ;
#100 = CALENDAR_DATE ( 2020, 22, 12 ) ;
#101 = CALENDAR_DATE ( 2020, 22, 12 ) ;
#102 = CC_DESIGN_PERSON_AND_ORGANIZATION_ASSIGNMENT ( #124, #97, ( #153 ) ) ;
#103 = PERSON_AND_ORGANIZATION ( #152, #10 ) ;
#104 = VERTEX_POINT ( 'NONE', #1 ) ;
#105 = DIRECTION ( 'NONE',  ( 0.000000000000000000, 0.000000000000000000, 1.000000000000000000 ) ) ;
#106 = DIRECTION ( 'NONE',  ( 0.000000000000000000, 0.000000000000000000, 1.000000000000000000 ) ) ;
#107 = CIRCLE ( 'NONE', #56, 12.69999999999999929 ) ;
#108 = DIRECTION ( 'NONE',  ( -1.000000000000000000, -0.000000000000000000, -0.000000000000000000 ) ) ;
#109 = CARTESIAN_POINT ( 'NONE',  ( 0.000000000000000000, 0.000000000000000000, 0.000000000000000000 ) ) ;
#110 = LOCAL_TIME ( 17, 26, 56.00000000000000000, #70 ) ;
#111 = APPROVAL_STATUS ( 'not_yet_approved' ) ;
#112 = PERSON_AND_ORGANIZATION_ROLE ( 'design_supplier' ) ;
#113 = COORDINATED_UNIVERSAL_TIME_OFFSET ( 8, 0, .AHEAD. ) ;
#114 = CC_DESIGN_APPROVAL ( #12, ( #174 ) ) ;
#115 = ORIENTED_EDGE ( 'NONE', *, *, #166, .F. ) ;
#116 = CIRCLE ( 'NONE', #82, 12.69999999999999929 ) ;
#117 = CARTESIAN_POINT ( 'NONE',  ( -1.187907395172932594E-15, 0.000000000000000000, 0.000000000000000000 ) ) ;
#118 = DIRECTION ( 'NONE',  ( -1.000000000000000000, -0.000000000000000000, -0.000000000000000000 ) ) ;
#119 = CYLINDRICAL_SURFACE ( 'NONE', #35, 12.69999999999999929 ) ;
#120 = DIRECTION ( 'NONE',  ( 0.000000000000000000, 0.000000000000000000, 1.000000000000000000 ) ) ;
#121 = APPROVAL_PERSON_ORGANIZATION ( #146, #81, #59 ) ;
#122 = COORDINATED_UNIVERSAL_TIME_OFFSET ( 8, 0, .AHEAD. ) ;
#123 = APPROVAL_DATE_TIME ( #165, #125 ) ;
#124 = PERSON_AND_ORGANIZATION ( #152, #10 ) ;
#125 = APPROVAL ( #111, 'UNSPECIFIED' ) ;
#126 = EDGE_LOOP ( 'NONE', ( #115, #49 ) ) ;
#127 = PRODUCT_RELATED_PRODUCT_CATEGORY ( 'detail', '', ( #153 ) ) ;
#128 = AXIS2_PLACEMENT_3D ( 'NONE', #109, #92, #120 ) ;
#129 = ORIENTED_EDGE ( 'NONE', *, *, #171, .T. ) ;
#130 = LINE ( 'NONE', #14, #24 ) ;
#131 = DIRECTION ( 'NONE',  ( 1.000000000000000000, 0.000000000000000000, 0.000000000000000000 ) ) ;
#132 = DIRECTION ( 'NONE',  ( 0.000000000000000000, 0.000000000000000000, 1.000000000000000000 ) ) ;
#133 = CC_DESIGN_APPROVAL ( #125, ( #136 ) ) ;
#134 = ORIENTED_EDGE ( 'NONE', *, *, #77, .T. ) ;
#135 = CALENDAR_DATE ( 2020, 22, 12 ) ;
#136 = SECURITY_CLASSIFICATION ( '', '', #98 ) ;
#137 = EDGE_CURVE ( 'NONE', #142, #75, #107, .T. ) ;
#138 = CLOSED_SHELL ( 'NONE', ( #88, #86, #22, #94 ) ) ;
#139 = CC_DESIGN_DATE_AND_TIME_ASSIGNMENT ( #143, #58, ( #136 ) ) ;
#140 = APPROVAL_DATE_TIME ( #164, #81 ) ;
#141 = CARTESIAN_POINT ( 'NONE',  ( -1.187907395172932594E-15, 1.555301434917138433E-15, -12.69999999999999929 ) ) ;
#142 = VERTEX_POINT ( 'NONE', #141 ) ;
#143 = DATE_AND_TIME ( #135, #38 ) ;
#144 = CARTESIAN_POINT ( 'NONE',  ( 0.000000000000000000, 0.000000000000000000, 0.000000000000000000 ) ) ;
#145 = APPROVAL_DATE_TIME ( #67, #12 ) ;
#146 = PERSON_AND_ORGANIZATION ( #152, #10 ) ;
#147 = PERSON_AND_ORGANIZATION_ROLE ( 'creator' ) ;
#148 = ORIENTED_EDGE ( 'NONE', *, *, #71, .T. ) ;
#149 = APPROVAL_STATUS ( 'not_yet_approved' ) ;
#150 = EDGE_LOOP ( 'NONE', ( #9, #134, #8, #48 ) ) ;
#151 = ORIENTED_EDGE ( 'NONE', *, *, #71, .F. ) ;
#152 = PERSON ( 'UNSPECIFIED', 'UNSPECIFIED', 'UNSPECIFIED', ('UNSPECIFIED'), ('UNSPECIFIED'), ('UNSPECIFIED') ) ;
#153 = PRODUCT ( 'MHWP-25.4-670', 'MHWP-25.4-670', '', ( #159 ) ) ;
#154 = PRODUCT_DEFINITION ( 'UNKNOWN', '', #174, #43 ) ;
#155 = PRODUCT_DEFINITION_SHAPE ( 'NONE', 'NONE',  #154 ) ;
#156 = CARTESIAN_POINT ( 'NONE',  ( 0.000000000000000000, 0.000000000000000000, 0.000000000000000000 ) ) ;
#157 = DIRECTION ( 'NONE',  ( -1.000000000000000000, -0.000000000000000000, -0.000000000000000000 ) ) ;
#158 = CIRCLE ( 'NONE', #87, 12.69999999999999929 ) ;
#159 = MECHANICAL_CONTEXT ( 'NONE', #170, 'mechanical' ) ;
#160 = SHAPE_DEFINITION_REPRESENTATION ( #155, #42 ) ;
#161 = DIRECTION ( 'NONE',  ( 1.000000000000000000, 0.000000000000000000, 0.000000000000000000 ) ) ;
#162 = CC_DESIGN_PERSON_AND_ORGANIZATION_ASSIGNMENT ( #72, #68, ( #154 ) ) ;
#163 = APPROVAL_ROLE ( '' ) ;
#164 = DATE_AND_TIME ( #37, #99 ) ;
#165 = DATE_AND_TIME ( #69, #110 ) ;
#166 = EDGE_CURVE ( 'NONE', #39, #104, #116, .T. ) ;
#167 = LOCAL_TIME ( 17, 26, 56.00000000000000000, #46 ) ;
#168 = ORIENTED_EDGE ( 'NONE', *, *, #28, .F. ) ;
#169 = DATE_TIME_ROLE ( 'creation_date' ) ;
#170 = APPLICATION_CONTEXT ( 'configuration controlled 3d designs of mechanical parts and assemblies' ) ;
#171 = EDGE_CURVE ( 'NONE', #104, #142, #130, .T. ) ;
#172 = CC_DESIGN_PERSON_AND_ORGANIZATION_ASSIGNMENT ( #45, #85, ( #136 ) ) ;
#173 = CARTESIAN_POINT ( 'NONE',  ( -5.939536975864662969E-16, 12.69999999999999929, 0.000000000000000000 ) ) ;
#174 = PRODUCT_DEFINITION_FORMATION_WITH_SPECIFIED_SOURCE ( 'ANY', '', #153, .NOT_KNOWN. ) ;
#175 = AXIS2_PLACEMENT_3D ( 'NONE', #54, #53, #91 ) ;
ENDSEC;
END-ISO-10303-21;
